   0
SECTION
   2
HEADER
   9
$LIMMIN
  10
0.0
  20
0.0
   9
$LIMMAX
  10
 210.000
  20
 297.000
   9
$EXTMIN
  10
0.0
  20
0.0
   9
$EXTMAX
  10
 210.000
  20
 297.000
   9
$LTSCALE
  40
 5.94000
   0
ENDSEC
   0
SECTION
   2
TABLES
  0
TABLE
  2
LTYPE
 70
    25
  0
LTYPE
  2
CONTINUOUS
 70
    64
  3
Solid line
 72
    65
 73
     0
 40
0.0
  0
LTYPE
  2
BORDER
 70
    64
  3
__ __ . __ __ . __ __ . __ __ . __ __ . __ __ .
 72
    65
 73
     6
 40
1.75
 49
0.5
 49
-0.25
 49
0.5
 49
-0.25
 49
0.0
 49
-0.25
  0
LTYPE
  2
BORDER2
 70
    64
  3
__.__.__.__.__.__.__.__.__.__.__.__.__.__.__.__
 72
    65
 73
     6
 40
0.875
 49
0.25
 49
-0.125
 49
0.25
 49
-0.125
 49
0.0
 49
-0.125
  0
LTYPE
  2
BORDERX2
 70
    64
  3
____  ____  .  ____  ____  .  ____  ____  .  __
 72
    65
 73
     6
 40
3.5
 49
1.0
 49
-0.5
 49
1.0
 49
-0.5
 49
0.0
 49
-0.5
  0
LTYPE
  2
CENTER
 70
    64
  3
____ _ ____ _ ____ _ ____ _ ____ _ ____ _ ____ 
 72
    65
 73
     4
 40
2.0
 49
1.25
 49
-0.25
 49
0.25
 49
-0.25
  0
LTYPE
  2
CENTER2
 70
    64
  3
___ _ ___ _ ___ _ ___ _ ___ _ ___ _ ___ _ ___ _
 72
    65
 73
     4
 40
1.125
 49
0.75
 49
-0.125
 49
0.125
 49
-0.125
  0
LTYPE
  2
CENTERX2
 70
    64
  3
________  __  ________  __  ________  __  _____
 72
    65
 73
     4
 40
4.0
 49
2.5
 49
-0.5
 49
0.5
 49
-0.5
  0
LTYPE
  2
DASHDOT
 70
    64
  3
__ . __ . __ . __ . __ . __ . __ . __ . __ . __
 72
    65
 73
     4
 40
1.0
 49
0.5
 49
-0.25
 49
0.0
 49
-0.25
  0
LTYPE
  2
DASHDOT2
 70
    64
  3
_._._._._._._._._._._._._._._._._._._._._._._._
 72
    65
 73
     4
 40
0.5
 49
0.25
 49
-0.125
 49
0.0
 49
-0.125
  0
LTYPE
  2
DASHDOTX2
 70
    64
  3
____  .  ____  .  ____  .  ____  .  ____  .  __
 72
    65
 73
     4
 40
2.0
 49
1.0
 49
-0.5
 49
0.0
 49
-0.5
  0
LTYPE
  2
DASHED
 70
    64
  3
__ __ __ __ __ __ __ __ __ __ __ __ __ __ __ __
 72
    65
 73
     2
 40
0.75
 49
0.5
 49
-0.25
  0
LTYPE
  2
DASHED2
 70
    64
  3
_ _ _ _ _ _ _ _ _ _ _ _ _ _ _ _ _ _ _ _ _ _ _ _
 72
    65
 73
     2
 40
0.375
 49
0.25
 49
-0.125
  0
LTYPE
  2
DASHEDX2
 70
    64
  3
____  ____  ____  ____  ____  ____  ____  ____ 
 72
    65
 73
     2
 40
1.5
 49
1.0
 49
-0.5
  0
LTYPE
  2
DIVIDE
 70
    64
  3
____ . . ____ . . ____ . . ____ . . ____ . . __
 72
    65
 73
     6
 40
1.25
 49
0.5
 49
-0.25
 49
0.0
 49
-0.25
 49
0.0
 49
-0.25
  0
LTYPE
  2
DIVIDE2
 70
    64
  3
__..__..__..__..__..__..__..__..__..__..__..__.
 72
    65
 73
     6
 40
0.625
 49
0.25
 49
-0.125
 49
0.0
 49
-0.125
 49
0.0
 49
-0.125
  0
LTYPE
  2
DIVIDEX2
 70
    64
  3
________  .  .  ________  .  .  ________  .  . 
 72
    65
 73
     6
 40
2.5
 49
1.0
 49
-0.5
 49
0.0
 49
-0.5
 49
0.0
 49
-0.5
  0
LTYPE
  2
DOT
 70
    64
  3
. . . . . . . . . . . . . . . . . . . . . . . .
 72
    65
 73
     2
 40
0.25
 49
0.0
 49
-0.25
  0
LTYPE
  2
DOT2
 70
    64
  3
...............................................
 72
    65
 73
     2
 40
0.125
 49
0.0
 49
-0.125
  0
LTYPE
  2
DOTX2
 70
    64
  3
.  .  .  .  .  .  .  .  .  .  .  .  .  .  .  . 
 72
    65
 73
     2
 40
0.5
 49
0.0
 49
-0.5
  0
LTYPE
  2
HIDDEN
 70
    64
  3
__ __ __ __ __ __ __ __ __ __ __ __ __ __ __ __
 72
    65
 73
     2
 40
0.375
 49
0.25
 49
-0.125
  0
LTYPE
  2
HIDDEN2
 70
    64
  3
_ _ _ _ _ _ _ _ _ _ _ _ _ _ _ _ _ _ _ _ _ _ _ _
 72
    65
 73
     2
 40
0.1875
 49
0.125
 49
-0.0625
  0
LTYPE
  2
HIDDENX2
 70
    64
  3
____ ____ ____ ____ ____ ____ ____ ____ ____ __
 72
    65
 73
     2
 40
0.75
 49
0.5
 49
-0.25
  0
LTYPE
  2
PHANTOM
 70
    64
  3
______  __  __  ______  __  __  ______  __  __ 
 72
    65
 73
     6
 40
2.5
 49
1.25
 49
-0.25
 49
0.25
 49
-0.25
 49
0.25
 49
-0.25
  0
LTYPE
  2
PHANTOM2
 70
    64
  3
___ _ _ ___ _ _ ___ _ _ ___ _ _ ___ _ _ ___ _ _
 72
    65
 73
     6
 40
1.25
 49
0.625
 49
-0.125
 49
0.125
 49
-0.125
 49
0.125
 49
-0.125
  0
LTYPE
  2
PHANTOMX2
 70
    64
  3
____________    ____    ____    ____________   
 72
    65
 73
     6
 40
5.0
 49
2.5
 49
-0.5
 49
0.5
 49
-0.5
 49
0.5
 49
-0.5
  0
ENDTAB
  0
TABLE
  2
STYLE
 70
     2
  0
STYLE
  2
STANDARD
 70
0
 40
0.0
 41
1.0
 50
0.0
 71
0
 42
0.2
  3
TXT
  4
BIGFONT
  0
STYLE
  2
STANDARD1
 70
     4
 40
0.0
 41
1.0
 50
0.0
 71
     0
 42
0.2
  3
TXT
  4
BIGFONT
  0
ENDTAB
   0
TABLE
   2
LAYER
  70
2
   0
LAYER
   2
0
  70
0
  62
7
   6
CONTINUOUS
   0
LAYER
   2
LEVEL001
  70
0
  62
7
   6
CONTINUOUS
   0
ENDTAB
   0
ENDSEC
   0
SECTION
   2
ENTITIES
   0
TEXT
   8
LEVEL001
  62
7
  10
 65.1319
  20
 8.01989
  30
0.0
  40
 12.0000
   1
‚d‚k series
   7
STANDARD
  72
1
  11
 98.1319
  21
 16.0199
  31
0.0
  73
2
   0
ARC
   8
LEVEL001
   6
CONTINUOUS
  62
7
  10
 64.3715
  20
 205.019
  30
0.0
  40
 5.99990
  50
 182.000
  51
 270.000
   0
ARC
   8
LEVEL001
   6
CONTINUOUS
  62
7
  10
 57.8141
  20
 209.419
  30
0.0
  40
 0.399994
  50
 2.00247
  51
 90.0011
   0
LINE
   8
LEVEL001
   6
CONTINUOUS
  62
7
  10
 58.2138
  20
 209.433
  30
0.0
  11
 58.3753
  21
 204.809
  31
0.0
   0
ARC
   8
LEVEL001
   6
CONTINUOUS
  62
7
  10
 50.9318
  20
 204.619
  30
0.0
  40
 0.399994
  50
 180.002
  51
 270.002
   0
LINE
   8
LEVEL001
   6
CONTINUOUS
  62
7
  10
 50.5318
  20
 209.819
  30
0.0
  11
 50.5318
  21
 204.619
  31
0.0
   0
LINE
   8
LEVEL001
   6
CONTINUOUS
  62
7
  10
 50.9319
  20
 204.219
  30
0.0
  11
 58.4252
  21
 204.219
  31
0.0
   0
ARC
   8
LEVEL001
   6
CONTINUOUS
  62
7
  10
 64.3179
  20
 194.619
  30
0.0
  40
 0.399994
  50
 182.000
  51
 269.997
   0
ARC
   8
LEVEL001
   6
CONTINUOUS
  62
7
  10
 70.7453
  20
 194.619
  30
0.0
  40
 0.399994
  50
 269.999
  51
 358.000
   0
LINE
   8
LEVEL001
   6
CONTINUOUS
  62
7
  10
 70.7453
  20
 194.219
  30
0.0
  11
 64.3179
  21
 194.219
  31
0.0
   0
ARC
   8
LEVEL001
   6
CONTINUOUS
  62
7
  10
 71.6854
  20
 198.619
  30
0.0
  40
 0.399994
  50
 89.9990
  51
 178.002
   0
LINE
   8
LEVEL001
   6
CONTINUOUS
  62
7
  10
 71.1450
  20
 194.605
  30
0.0
  11
 71.2856
  21
 198.633
  31
0.0
   0
ARC
   8
LEVEL001
   6
CONTINUOUS
  62
7
  10
 63.3751
  20
 198.697
  30
0.0
  40
 0.399994
  50
 2.00112
  51
 81.0438
   0
LINE
   8
LEVEL001
   6
CONTINUOUS
  62
7
  10
 63.9182
  20
 194.605
  30
0.0
  11
 63.7748
  21
 198.711
  31
0.0
   0
LINE
   8
LEVEL001
   6
CONTINUOUS
  62
7
  10
 48.7319
  20
 209.819
  30
0.0
  11
 57.8141
  21
 209.819
  31
0.0
   0
POLYLINE
   8
LEVEL001
   6
CONTINUOUS
  62
7
  66
1
  10
0.0
  20
0.0
  30
0.0
  70
0
   0
VERTEX
   8
LEVEL001
   6
CONTINUOUS
  62
7
  10
 65.2116
  20
 194.219
  30
0.0
   0
VERTEX
   8
LEVEL001
   6
CONTINUOUS
  62
7
  10
 65.2116
  20
 193.819
  30
0.0
   0
VERTEX
   8
LEVEL001
   6
CONTINUOUS
  62
7
  10
 70.2515
  20
 193.819
  30
0.0
   0
VERTEX
   8
LEVEL001
   6
CONTINUOUS
  62
7
  10
 70.2515
  20
 194.219
  30
0.0
   0
SEQEND
   0
ARC
   8
LEVEL001
   6
CONTINUOUS
  62
7
  10
 67.7316
  20
 193.819
  30
0.0
  40
 2.19997
  50
 180.000
  51
0.0
   0
LINE
   8
LEVEL001
   6
CONTINUOUS
  62
7
  10
 48.7319
  20
 209.819
  30
0.0
  11
 48.8511
  21
 213.233
  31
0.0
   0
ARC
   8
LEVEL001
   6
CONTINUOUS
  62
7
  10
 49.6506
  20
 213.206
  30
0.0
  40
 0.799987
  50
 105.594
  51
 178.000
   0
LINE
   8
LEVEL001
   6
CONTINUOUS
  62
7
  10
 64.3715
  20
 199.019
  30
0.0
  11
 97.7311
  21
 199.019
  31
0.0
   0
ARC
   8
LEVEL001
   6
CONTINUOUS
  62
7
  10
 49.2833
  20
 216.010
  30
0.0
  40
 1.99997
  50
 285.594
  51
 355.000
   0
LINE
   8
LEVEL001
   6
CONTINUOUS
  62
7
  10
 49.4356
  20
 213.976
  30
0.0
  11
 49.8209
  21
 214.084
  31
0.0
   0
ARC
   8
LEVEL001
   6
CONTINUOUS
  62
7
  10
 93.3819
  20
 238.171
  30
0.0
  40
 39.9994
  50
 151.851
  51
 175.000
   0
LINE
   8
LEVEL001
   6
CONTINUOUS
  62
7
  10
 66.6011
  20
 272.905
  30
0.0
  11
 58.1134
  21
 257.041
  31
0.0
   0
LINE
   8
LEVEL001
   6
CONTINUOUS
  62
7
  10
 53.5348
  20
 241.657
  30
0.0
  11
 51.2756
  21
 215.836
  31
0.0
   0
ARC
   8
LEVEL001
   6
CONTINUOUS
  62
7
  10
 72.2920
  20
 273.208
  30
0.0
  40
 3.99994
  50
 93.6641
  51
 161.847
   0
LINE
   8
LEVEL001
   6
CONTINUOUS
  62
7
  10
 128.861
  20
 272.905
  30
0.0
  11
 137.349
  21
 257.041
  31
0.0
   0
ARC
   8
LEVEL001
   6
CONTINUOUS
  62
7
  10
 102.080
  20
 238.171
  30
0.0
  40
 39.9994
  50
 5.00005
  51
 28.1485
   0
LINE
   8
LEVEL001
   6
CONTINUOUS
  62
7
  10
 141.927
  20
 241.657
  30
0.0
  11
 144.187
  21
 215.836
  31
0.0
   0
ARC
   8
LEVEL001
   6
CONTINUOUS
  62
7
  10
 125.334
  20
 271.018
  30
0.0
  40
 3.99994
  50
 28.1483
  51
 89.9999
   0
LINE
   8
LEVEL001
   6
CONTINUOUS
  62
7
  10
 123.531
  20
 275.018
  30
0.0
  11
 123.011
  21
 275.018
  31
0.0
   0
ARC
   8
LEVEL001
   6
CONTINUOUS
  62
7
  10
 146.179
  20
 216.010
  30
0.0
  40
 1.99997
  50
 185.000
  51
 254.406
   0
ARC
   8
LEVEL001
   6
CONTINUOUS
  62
7
  10
 145.812
  20
 213.206
  30
0.0
  40
 0.799987
  50
 2.00034
  51
 74.4056
   0
LINE
   8
LEVEL001
   6
CONTINUOUS
  62
7
  10
 146.027
  20
 213.976
  30
0.0
  11
 145.641
  21
 214.084
  31
0.0
   0
LINE
   8
LEVEL001
   6
CONTINUOUS
  62
7
  10
 146.730
  20
 209.819
  30
0.0
  11
 146.611
  21
 213.233
  31
0.0
   0
LINE
   8
LEVEL001
   6
CONTINUOUS
  62
7
  10
 131.091
  20
 199.019
  30
0.0
  11
 97.7311
  21
 199.019
  31
0.0
   0
ARC
   8
LEVEL001
   6
CONTINUOUS
  62
7
  10
 132.087
  20
 198.697
  30
0.0
  40
 0.399994
  50
 98.9540
  51
 177.999
   0
LINE
   8
LEVEL001
   6
CONTINUOUS
  62
7
  10
 131.544
  20
 194.605
  30
0.0
  11
 131.687
  21
 198.711
  31
0.0
   0
LINE
   8
LEVEL001
   6
CONTINUOUS
  62
7
  10
 124.317
  20
 194.605
  30
0.0
  11
 124.177
  21
 198.633
  31
0.0
   0
LINE
   8
LEVEL001
   6
CONTINUOUS
  62
7
  10
 124.717
  20
 194.219
  30
0.0
  11
 131.144
  21
 194.219
  31
0.0
   0
POLYLINE
   8
LEVEL001
   6
CONTINUOUS
  62
7
  66
1
  10
0.0
  20
0.0
  30
0.0
  70
0
   0
VERTEX
   8
LEVEL001
   6
CONTINUOUS
  62
7
  10
 130.251
  20
 194.219
  30
0.0
   0
VERTEX
   8
LEVEL001
   6
CONTINUOUS
  62
7
  10
 130.251
  20
 193.819
  30
0.0
   0
VERTEX
   8
LEVEL001
   6
CONTINUOUS
  62
7
  10
 125.211
  20
 193.819
  30
0.0
   0
VERTEX
   8
LEVEL001
   6
CONTINUOUS
  62
7
  10
 125.211
  20
 194.219
  30
0.0
   0
SEQEND
   0
ARC
   8
LEVEL001
   6
CONTINUOUS
  62
7
  10
 131.144
  20
 194.619
  30
0.0
  40
 0.399994
  50
 270.000
  51
 358.000
   0
ARC
   8
LEVEL001
   6
CONTINUOUS
  62
7
  10
 124.717
  20
 194.619
  30
0.0
  40
 0.399994
  50
 182.000
  51
 270.000
   0
ARC
   8
LEVEL001
   6
CONTINUOUS
  62
7
  10
 127.731
  20
 193.819
  30
0.0
  40
 2.19997
  50
 180.000
  51
0.0
   0
ARC
   8
LEVEL001
   6
CONTINUOUS
  62
7
  10
 97.5978
  20
-121.976
  30
0.0
  40
 399.994
  50
 86.2979
  51
 93.6640
   0
LINE
   8
LEVEL001
   6
CONTINUOUS
  62
7
  10
 121.731
  20
 275.018
  30
0.0
  11
 124.635
  21
 241.818
  31
0.0
   0
LINE
   8
LEVEL001
   6
CONTINUOUS
  62
7
  10
 141.030
  20
 241.818
  30
0.0
  11
 143.663
  21
 221.819
  31
0.0
   0
ARC
   8
LEVEL001
   6
CONTINUOUS
  62
7
  10
 123.814
  20
 254.819
  30
0.0
  40
 11.9998
  50
 36.0750
  51
 84.2762
   0
LINE
   8
LEVEL001
   6
CONTINUOUS
  62
7
  10
 122.431
  20
 267.018
  30
0.0
  11
 125.010
  21
 266.759
  31
0.0
   0
ARC
   8
LEVEL001
   6
CONTINUOUS
  62
7
  10
 101.183
  20
 238.332
  30
0.0
  40
 39.9994
  50
 5.00001
  51
 36.0748
   0
LINE
   8
LEVEL001
   6
CONTINUOUS
  62
7
  10
 139.850
  20
 217.419
  30
0.0
  11
 140.250
  21
 217.819
  31
0.0
   0
LINE
   8
LEVEL001
   6
CONTINUOUS
  62
7
  10
 139.850
  20
 215.819
  30
0.0
  11
 139.850
  21
 217.419
  31
0.0
   0
LINE
   8
LEVEL001
   6
CONTINUOUS
  62
7
  10
 143.210
  20
 217.819
  30
0.0
  11
 143.610
  21
 217.419
  31
0.0
   0
LINE
   8
LEVEL001
   6
CONTINUOUS
  62
7
  10
 143.610
  20
 217.419
  30
0.0
  11
 143.610
  21
 215.819
  31
0.0
   0
LINE
   8
LEVEL001
   6
CONTINUOUS
  62
7
  10
 140.250
  20
 217.819
  30
0.0
  11
 143.210
  21
 217.819
  31
0.0
   0
LINE
   8
LEVEL001
   6
CONTINUOUS
  62
7
  10
 140.610
  20
 217.412
  30
0.0
  11
 140.610
  21
 215.819
  31
0.0
   0
LINE
   8
LEVEL001
   6
CONTINUOUS
  62
7
  10
 142.850
  20
 217.394
  30
0.0
  11
 142.850
  21
 215.819
  31
0.0
   0
ARC
   8
LEVEL001
   6
CONTINUOUS
  62
7
  10
 141.720
  20
 216.101
  30
0.0
  40
 1.71717
  50
 48.8343
  51
 130.256
   0
LINE
   8
LEVEL001
   6
CONTINUOUS
  62
7
  10
 140.610
  20
 217.412
  30
0.0
  11
 140.250
  21
 217.819
  31
0.0
   0
LINE
   8
LEVEL001
   6
CONTINUOUS
  62
7
  10
 142.850
  20
 217.394
  30
0.0
  11
 143.210
  21
 217.819
  31
0.0
   0
POLYLINE
   8
LEVEL001
   6
CONTINUOUS
  62
7
  66
1
  10
0.0
  20
0.0
  30
0.0
  70
0
   0
VERTEX
   8
LEVEL001
   6
CONTINUOUS
  62
7
  10
 139.850
  20
 215.419
  30
0.0
   0
VERTEX
   8
LEVEL001
   6
CONTINUOUS
  62
7
  10
 139.850
  20
 215.819
  30
0.0
   0
VERTEX
   8
LEVEL001
   6
CONTINUOUS
  62
7
  10
 143.610
  20
 215.819
  30
0.0
   0
VERTEX
   8
LEVEL001
   6
CONTINUOUS
  62
7
  10
 143.610
  20
 215.419
  30
0.0
   0
SEQEND
   0
POLYLINE
   8
LEVEL001
   6
CONTINUOUS
  62
7
  66
1
  10
0.0
  20
0.0
  30
0.0
  70
0
   0
VERTEX
   8
LEVEL001
   6
CONTINUOUS
  62
7
  10
 139.530
  20
 215.019
  30
0.0
   0
VERTEX
   8
LEVEL001
   6
CONTINUOUS
  62
7
  10
 139.530
  20
 215.419
  30
0.0
   0
VERTEX
   8
LEVEL001
   6
CONTINUOUS
  62
7
  10
 143.930
  20
 215.419
  30
0.0
   0
VERTEX
   8
LEVEL001
   6
CONTINUOUS
  62
7
  10
 143.930
  20
 215.019
  30
0.0
   0
SEQEND
   0
LINE
   8
LEVEL001
   6
CONTINUOUS
  62
7
  10
 141.730
  20
 215.819
  30
0.0
  11
 141.368
  21
 215.554
  31
0.0
   0
LINE
   8
LEVEL001
   6
CONTINUOUS
  62
7
  10
 141.730
  20
 215.419
  30
0.0
  11
 142.115
  21
 215.750
  31
0.0
   0
POLYLINE
   8
LEVEL001
   6
CONTINUOUS
  62
7
  66
1
  10
0.0
  20
0.0
  30
0.0
  70
0
   0
VERTEX
   8
LEVEL001
   6
CONTINUOUS
  62
7
  10
 139.330
  20
 214.328
  30
0.0
   0
VERTEX
   8
LEVEL001
   6
CONTINUOUS
  62
7
  10
 139.330
  20
 215.019
  30
0.0
   0
VERTEX
   8
LEVEL001
   6
CONTINUOUS
  62
7
  10
 144.130
  20
 215.019
  30
0.0
   0
VERTEX
   8
LEVEL001
   6
CONTINUOUS
  62
7
  10
 144.130
  20
 214.452
  30
0.0
   0
SEQEND
   0
ARC
   8
LEVEL001
   6
CONTINUOUS
  62
7
  10
 140.384
  20
 216.028
  30
0.0
  40
 1.99997
  50
 185.000
  51
 254.406
   0
POLYLINE
   8
LEVEL001
   6
CONTINUOUS
  62
7
  66
1
  10
0.0
  20
0.0
  30
0.0
  70
0
   0
VERTEX
   8
LEVEL001
   6
CONTINUOUS
  62
7
  10
 144.530
  20
 209.819
  30
0.0
   0
VERTEX
   8
LEVEL001
   6
CONTINUOUS
  62
7
  10
 144.530
  20
 207.019
  30
0.0
   0
VERTEX
   8
LEVEL001
   6
CONTINUOUS
  62
7
  10
 138.930
  20
 207.019
  30
0.0
   0
VERTEX
   8
LEVEL001
   6
CONTINUOUS
  62
7
  10
 138.930
  20
 209.819
  30
0.0
   0
SEQEND
   0
POLYLINE
   8
LEVEL001
   6
CONTINUOUS
  62
7
  66
1
  10
0.0
  20
0.0
  30
0.0
  70
0
   0
VERTEX
   8
LEVEL001
   6
CONTINUOUS
  62
7
  10
 140.730
  20
 207.019
  30
0.0
   0
VERTEX
   8
LEVEL001
   6
CONTINUOUS
  62
7
  10
 140.730
  20
 205.819
  30
0.0
   0
VERTEX
   8
LEVEL001
   6
CONTINUOUS
  62
7
  10
 142.730
  20
 205.819
  30
0.0
   0
VERTEX
   8
LEVEL001
   6
CONTINUOUS
  62
7
  10
 142.730
  20
 207.019
  30
0.0
   0
SEQEND
   0
LINE
   8
LEVEL001
   6
CONTINUOUS
  62
7
  10
 142.530
  20
 207.019
  30
0.0
  11
 142.530
  21
 205.819
  31
0.0
   0
LINE
   8
LEVEL001
   6
CONTINUOUS
  62
7
  10
 140.930
  20
 207.019
  30
0.0
  11
 140.930
  21
 205.819
  31
0.0
   0
LINE
   8
LEVEL001
   6
CONTINUOUS
  62
7
  10
 138.930
  20
 207.019
  30
0.0
  11
 134.329
  21
 202.134
  31
0.0
   0
LINE
   8
LEVEL001
   6
CONTINUOUS
  62
7
  10
 140.230
  20
 206.951
  30
0.0
  11
 136.124
  21
 201.778
  31
0.0
   0
LINE
   8
LEVEL001
   6
CONTINUOUS
  62
7
  10
 140.730
  20
 206.404
  30
0.0
  11
 136.166
  21
 201.819
  31
0.0
   0
ARC
   8
LEVEL001
   6
CONTINUOUS
  62
7
  10
 131.091
  20
 205.019
  30
0.0
  40
 5.99990
  50
 270.000
  51
 327.769
   0
POLYLINE
   8
LEVEL001
   6
CONTINUOUS
  62
7
  66
1
  10
0.0
  20
0.0
  30
0.0
  70
0
   0
VERTEX
   8
LEVEL001
   6
CONTINUOUS
  62
7
  10
 145.330
  20
 209.819
  30
0.0
   0
VERTEX
   8
LEVEL001
   6
CONTINUOUS
  62
7
  10
 145.330
  20
 200.219
  30
0.0
   0
VERTEX
   8
LEVEL001
   6
CONTINUOUS
  62
7
  10
 134.691
  20
 200.219
  30
0.0
   0
SEQEND
   0
ARC
   8
LEVEL001
   6
CONTINUOUS
  62
7
  10
 154.930
  20
 208.419
  30
0.0
  40
 0.399994
  50
 0.213874E-2
  51
 90.0000
   0
LINE
   8
LEVEL001
   6
CONTINUOUS
  62
7
  10
 145.330
  20
 208.819
  30
0.0
  11
 154.930
  21
 208.819
  31
0.0
   0
ARC
   8
LEVEL001
   6
CONTINUOUS
  62
7
  10
 154.930
  20
 201.619
  30
0.0
  40
 0.399994
  50
 270.000
  51
 0.223265E-2
   0
LINE
   8
LEVEL001
   6
CONTINUOUS
  62
7
  10
 154.930
  20
 201.219
  30
0.0
  11
 145.330
  21
 201.219
  31
0.0
   0
LINE
   8
LEVEL001
   6
CONTINUOUS
  62
7
  10
 155.330
  20
 208.419
  30
0.0
  11
 155.330
  21
 201.619
  31
0.0
   0
ARC
   8
LEVEL001
   6
CONTINUOUS
  62
7
  10
 123.777
  20
 198.619
  30
0.0
  40
 0.399994
  50
 1.99808
  51
 90.0043
   0
ARC
   8
LEVEL001
   6
CONTINUOUS
  62
7
  10
 125.744
  20
 202.388
  30
0.0
  40
 0.399994
  50
 270.000
  51
 358.002
   0
LINE
   8
LEVEL001
   6
CONTINUOUS
  62
7
  10
 126.144
  20
 202.374
  30
0.0
  11
 126.404
  21
 209.819
  31
0.0
   0
ARC
   8
LEVEL001
   6
CONTINUOUS
  62
7
  10
 125.717
  20
 202.388
  30
0.0
  40
 0.399994
  50
 182.002
  51
 270.002
   0
LINE
   8
LEVEL001
   6
CONTINUOUS
  62
7
  10
 125.717
  20
 201.988
  30
0.0
  11
 125.744
  21
 201.988
  31
0.0
   0
LINE
   8
LEVEL001
   6
CONTINUOUS
  62
7
  10
 125.057
  20
 209.819
  30
0.0
  11
 125.317
  21
 202.374
  31
0.0
   0
LINE
   8
LEVEL001
   6
CONTINUOUS
  62
7
  10
 98.1446
  20
 202.374
  30
0.0
  11
 98.4045
  21
 209.819
  31
0.0
   0
ARC
   8
LEVEL001
   6
CONTINUOUS
  62
7
  10
 97.7448
  20
 202.388
  30
0.0
  40
 0.399994
  50
 270.000
  51
 358.002
   0
ARC
   8
LEVEL001
   6
CONTINUOUS
  62
7
  10
 123.170
  20
 273.208
  30
0.0
  40
 3.99994
  50
 22.0139
  51
 86.3362
   0
LINE
   8
LEVEL001
   6
CONTINUOUS
  62
7
  10
 49.4425
  20
 219.993
  30
0.0
  11
 48.8511
  21
 213.233
  31
0.0
   0
ARC
   8
LEVEL001
   6
CONTINUOUS
  62
7
  10
 49.9412
  20
 223.529
  30
0.0
  40
 1.99997
  50
 291.928
  51
 355.000
   0
ARC
   8
LEVEL001
   6
CONTINUOUS
  62
7
  10
 51.4349
  20
 219.819
  30
0.0
  40
 1.99997
  50
 111.928
  51
 175.000
   0
LINE
   8
LEVEL001
   6
CONTINUOUS
  62
7
  10
 70.1222
  20
 275.018
  30
0.0
  11
 125.334
  21
 275.018
  31
0.0
   0
ARC
   8
LEVEL001
   6
CONTINUOUS
  62
7
  10
 70.1279
  20
 271.018
  30
0.0
  40
 3.99994
  50
 90.0816
  51
 151.852
   0
LINE
   8
LEVEL001
   6
CONTINUOUS
  62
7
  10
 146.730
  20
 209.819
  30
0.0
  11
 57.8141
  21
 209.819
  31
0.0
   0
LINE
   8
LEVEL001
   6
CONTINUOUS
  62
7
  10
 97.7311
  20
 213.819
  30
0.0
  11
 145.344
  21
 213.819
  31
0.0
   0
LINE
   8
LEVEL001
   6
CONTINUOUS
  62
7
  10
 73.7315
  20
 275.018
  30
0.0
  11
 70.8270
  21
 241.818
  31
0.0
   0
ARC
   8
LEVEL001
   6
CONTINUOUS
  62
7
  10
 71.6486
  20
 254.819
  30
0.0
  40
 11.9998
  50
 95.7238
  51
 143.925
   0
LINE
   8
LEVEL001
   6
CONTINUOUS
  62
7
  10
 73.0316
  20
 267.018
  30
0.0
  11
 70.4518
  21
 266.759
  31
0.0
   0
ARC
   8
LEVEL001
   6
CONTINUOUS
  62
7
  10
 94.2792
  20
 238.332
  30
0.0
  40
 39.9994
  50
 143.925
  51
 175.000
   0
LINE
   8
LEVEL001
   6
CONTINUOUS
  62
7
  10
 54.4321
  20
 241.818
  30
0.0
  11
 51.7991
  21
 221.819
  31
0.0
   0
LINE
   8
LEVEL001
   6
CONTINUOUS
  62
7
  10
 55.6118
  20
 217.419
  30
0.0
  11
 55.2118
  21
 217.819
  31
0.0
   0
LINE
   8
LEVEL001
   6
CONTINUOUS
  62
7
  10
 55.6118
  20
 215.819
  30
0.0
  11
 55.6118
  21
 217.419
  31
0.0
   0
LINE
   8
LEVEL001
   6
CONTINUOUS
  62
7
  10
 52.2518
  20
 217.819
  30
0.0
  11
 51.8518
  21
 217.419
  31
0.0
   0
LINE
   8
LEVEL001
   6
CONTINUOUS
  62
7
  10
 51.8518
  20
 217.419
  30
0.0
  11
 51.8518
  21
 215.819
  31
0.0
   0
LINE
   8
LEVEL001
   6
CONTINUOUS
  62
7
  10
 55.2118
  20
 217.819
  30
0.0
  11
 52.2518
  21
 217.819
  31
0.0
   0
LINE
   8
LEVEL001
   6
CONTINUOUS
  62
7
  10
 54.8518
  20
 217.412
  30
0.0
  11
 54.8518
  21
 215.819
  31
0.0
   0
LINE
   8
LEVEL001
   6
CONTINUOUS
  62
7
  10
 52.6118
  20
 217.394
  30
0.0
  11
 52.6118
  21
 215.819
  31
0.0
   0
ARC
   8
LEVEL001
   6
CONTINUOUS
  62
7
  10
 53.7421
  20
 216.101
  30
0.0
  40
 1.71717
  50
 49.7437
  51
 131.166
   0
LINE
   8
LEVEL001
   6
CONTINUOUS
  62
7
  10
 54.8518
  20
 217.412
  30
0.0
  11
 55.2118
  21
 217.819
  31
0.0
   0
LINE
   8
LEVEL001
   6
CONTINUOUS
  62
7
  10
 52.6118
  20
 217.394
  30
0.0
  11
 52.2518
  21
 217.819
  31
0.0
   0
POLYLINE
   8
LEVEL001
   6
CONTINUOUS
  62
7
  66
1
  10
0.0
  20
0.0
  30
0.0
  70
0
   0
VERTEX
   8
LEVEL001
   6
CONTINUOUS
  62
7
  10
 55.6118
  20
 215.419
  30
0.0
   0
VERTEX
   8
LEVEL001
   6
CONTINUOUS
  62
7
  10
 55.6118
  20
 215.819
  30
0.0
   0
VERTEX
   8
LEVEL001
   6
CONTINUOUS
  62
7
  10
 51.8518
  20
 215.819
  30
0.0
   0
VERTEX
   8
LEVEL001
   6
CONTINUOUS
  62
7
  10
 51.8518
  20
 215.419
  30
0.0
   0
SEQEND
   0
POLYLINE
   8
LEVEL001
   6
CONTINUOUS
  62
7
  66
1
  10
0.0
  20
0.0
  30
0.0
  70
0
   0
VERTEX
   8
LEVEL001
   6
CONTINUOUS
  62
7
  10
 55.9318
  20
 215.019
  30
0.0
   0
VERTEX
   8
LEVEL001
   6
CONTINUOUS
  62
7
  10
 55.9318
  20
 215.419
  30
0.0
   0
VERTEX
   8
LEVEL001
   6
CONTINUOUS
  62
7
  10
 51.5319
  20
 215.419
  30
0.0
   0
VERTEX
   8
LEVEL001
   6
CONTINUOUS
  62
7
  10
 51.5319
  20
 215.019
  30
0.0
   0
SEQEND
   0
LINE
   8
LEVEL001
   6
CONTINUOUS
  62
7
  10
 53.7318
  20
 215.819
  30
0.0
  11
 54.0939
  21
 215.554
  31
0.0
   0
LINE
   8
LEVEL001
   6
CONTINUOUS
  62
7
  10
 53.7318
  20
 215.419
  30
0.0
  11
 53.3473
  21
 215.750
  31
0.0
   0
POLYLINE
   8
LEVEL001
   6
CONTINUOUS
  62
7
  66
1
  10
0.0
  20
0.0
  30
0.0
  70
0
   0
VERTEX
   8
LEVEL001
   6
CONTINUOUS
  62
7
  10
 56.1318
  20
 214.328
  30
0.0
   0
VERTEX
   8
LEVEL001
   6
CONTINUOUS
  62
7
  10
 56.1318
  20
 215.019
  30
0.0
   0
VERTEX
   8
LEVEL001
   6
CONTINUOUS
  62
7
  10
 51.3319
  20
 215.019
  30
0.0
   0
VERTEX
   8
LEVEL001
   6
CONTINUOUS
  62
7
  10
 51.3319
  20
 214.452
  30
0.0
   0
SEQEND
   0
ARC
   8
LEVEL001
   6
CONTINUOUS
  62
7
  10
 55.0782
  20
 216.028
  30
0.0
  40
 1.99997
  50
 285.594
  51
 355.000
   0
LINE
   8
LEVEL001
   6
CONTINUOUS
  62
7
  10
 97.7311
  20
 213.819
  30
0.0
  11
 50.1182
  21
 213.819
  31
0.0
   0
ARC
   8
LEVEL001
   6
CONTINUOUS
  62
7
  10
 69.7178
  20
 202.388
  30
0.0
  40
 0.399994
  50
 181.998
  51
 270.000
   0
LINE
   8
LEVEL001
   6
CONTINUOUS
  62
7
  10
 69.3181
  20
 202.374
  30
0.0
  11
 69.0581
  21
 209.819
  31
0.0
   0
ARC
   8
LEVEL001
   6
CONTINUOUS
  62
7
  10
 69.7453
  20
 202.388
  30
0.0
  40
 0.399994
  50
 269.998
  51
 357.998
   0
LINE
   8
LEVEL001
   6
CONTINUOUS
  62
7
  10
 69.7453
  20
 201.988
  30
0.0
  11
 69.7178
  21
 201.988
  31
0.0
   0
LINE
   8
LEVEL001
   6
CONTINUOUS
  62
7
  10
 70.4050
  20
 209.819
  30
0.0
  11
 70.1450
  21
 202.374
  31
0.0
   0
LINE
   8
LEVEL001
   6
CONTINUOUS
  62
7
  10
 97.3176
  20
 202.374
  30
0.0
  11
 97.0577
  21
 209.819
  31
0.0
   0
ARC
   8
LEVEL001
   6
CONTINUOUS
  62
7
  10
 97.7174
  20
 202.388
  30
0.0
  40
 0.399994
  50
 181.998
  51
 270.000
   0
POLYLINE
   8
LEVEL001
   6
CONTINUOUS
  62
7
  66
1
  10
0.0
  20
0.0
  30
0.0
  70
0
   0
VERTEX
   8
LEVEL001
   6
CONTINUOUS
  62
7
  10
 50.9319
  20
 209.819
  30
0.0
   0
VERTEX
   8
LEVEL001
   6
CONTINUOUS
  62
7
  10
 50.9319
  20
 207.019
  30
0.0
   0
VERTEX
   8
LEVEL001
   6
CONTINUOUS
  62
7
  10
 56.5318
  20
 207.019
  30
0.0
   0
VERTEX
   8
LEVEL001
   6
CONTINUOUS
  62
7
  10
 56.5318
  20
 209.819
  30
0.0
   0
SEQEND
   0
POLYLINE
   8
LEVEL001
   6
CONTINUOUS
  62
7
  66
1
  10
0.0
  20
0.0
  30
0.0
  70
0
   0
VERTEX
   8
LEVEL001
   6
CONTINUOUS
  62
7
  10
 54.7318
  20
 207.019
  30
0.0
   0
VERTEX
   8
LEVEL001
   6
CONTINUOUS
  62
7
  10
 54.7318
  20
 205.819
  30
0.0
   0
VERTEX
   8
LEVEL001
   6
CONTINUOUS
  62
7
  10
 52.7318
  20
 205.819
  30
0.0
   0
VERTEX
   8
LEVEL001
   6
CONTINUOUS
  62
7
  10
 52.7318
  20
 207.019
  30
0.0
   0
SEQEND
   0
LINE
   8
LEVEL001
   6
CONTINUOUS
  62
7
  10
 52.9318
  20
 207.019
  30
0.0
  11
 52.9318
  21
 205.819
  31
0.0
   0
LINE
   8
LEVEL001
   6
CONTINUOUS
  62
7
  10
 54.5318
  20
 207.019
  30
0.0
  11
 54.5318
  21
 205.819
  31
0.0
   0
LINE
   8
LEVEL001
   6
DASHDOT
  62
1
  10
 143.726
  20
 205.019
  30
0.0
  11
 157.751
  21
 205.019
  31
0.0
   0
LINE
   8
LEVEL001
   6
DASHDOT
  62
1
  10
 127.731
  20
 199.619
  30
0.0
  11
 127.731
  21
 190.204
  31
0.0
   0
LINE
   8
LEVEL001
   6
DASHDOT
  62
1
  10
 67.7316
  20
 199.619
  30
0.0
  11
 67.7316
  21
 190.142
  31
0.0
   0
ARC
   8
LEVEL001
   6
CONTINUOUS
  62
7
  10
 33.2918
  20
 105.698
  30
0.0
  40
 100.000
  50
 5.33015
  51
 22.9257
   0
ARC
   8
LEVEL001
   6
CONTINUOUS
  62
7
  10
 124.840
  20
 144.418
  30
0.0
  40
 0.600001
  50
 22.9232
  51
 89.9995
   0
ARC
   8
LEVEL001
   6
CONTINUOUS
  62
7
  10
 124.618
  20
 144.618
  30
0.0
  40
 0.400001
  50
 90.0011
  51
 178.001
   0
LINE
   8
LEVEL001
   6
CONTINUOUS
  62
7
  10
 135.388
  20
 85.8352
  30
0.0
  11
 132.807
  21
 115.334
  31
0.0
   0
ARC
   8
LEVEL001
   6
CONTINUOUS
  62
7
  10
 137.381
  20
 86.0095
  30
0.0
  40
 2.00000
  50
 185.000
  51
 254.407
   0
ARC
   8
LEVEL001
   6
CONTINUOUS
  62
7
  10
 137.013
  20
 83.2050
  30
0.0
  40
 0.800002
  50
 1.99732
  51
 74.4069
   0
LINE
   8
LEVEL001
   6
CONTINUOUS
  62
7
  10
 137.813
  20
 83.2329
  30
0.0
  11
 137.932
  21
 79.8182
  31
0.0
   0
ARC
   8
LEVEL001
   6
CONTINUOUS
  62
7
  10
 122.292
  20
 75.0181
  30
0.0
  40
 6.00001
  50
 270.000
  51
 327.769
   0
LINE
   8
LEVEL001
   6
CONTINUOUS
  62
7
  10
 125.945
  20
 64.6042
  30
0.0
  11
 126.143
  21
 70.2471
  31
0.0
   0
ARC
   8
LEVEL001
   6
CONTINUOUS
  62
7
  10
 125.546
  20
 64.6181
  30
0.0
  40
 0.400001
  50
 269.997
  51
 358.001
   0
LINE
   8
LEVEL001
   6
CONTINUOUS
  62
7
  10
 125.546
  20
 64.2181
  30
0.0
  11
 118.718
  21
 64.2181
  31
0.0
   0
POLYLINE
   8
LEVEL001
   6
CONTINUOUS
  62
7
  66
1
  10
0.0
  20
0.0
  30
0.0
  70
0
   0
VERTEX
   8
LEVEL001
   6
CONTINUOUS
  62
7
  10
 124.652
  20
 64.2181
  30
0.0
   0
VERTEX
   8
LEVEL001
   6
CONTINUOUS
  62
7
  10
 124.652
  20
 63.8181
  30
0.0
   0
VERTEX
   8
LEVEL001
   6
CONTINUOUS
  62
7
  10
 119.612
  20
 63.8181
  30
0.0
   0
VERTEX
   8
LEVEL001
   6
CONTINUOUS
  62
7
  10
 119.612
  20
 64.2181
  30
0.0
   0
SEQEND
   0
ARC
   8
LEVEL001
   6
CONTINUOUS
  62
7
  10
 122.132
  20
 63.8181
  30
0.0
  40
 2.20003
  50
 180.000
  51
0.0
   0
LINE
   8
LEVEL001
   6
CONTINUOUS
  62
7
  10
 122.292
  20
 69.0181
  30
0.0
  11
 98.1319
  21
 69.0181
  31
0.0
   0
ARC
   8
LEVEL001
   6
CONTINUOUS
  62
7
  10
 118.718
  20
 64.6181
  30
0.0
  40
 0.400001
  50
 182.003
  51
 269.995
   0
LINE
   8
LEVEL001
   6
CONTINUOUS
  62
7
  10
 118.318
  20
 64.6041
  30
0.0
  11
 118.178
  21
 68.6321
  31
0.0
   0
ARC
   8
LEVEL001
   6
CONTINUOUS
  62
7
  10
 122.741
  20
 146.665
  30
0.0
  40
 0.600001
  50
 0.920183
  51
 86.4794
   0
LINE
   8
LEVEL001
   6
CONTINUOUS
  62
7
  10
 98.1319
  20
 134.818
  30
0.0
  11
 123.532
  21
 134.818
  31
0.0
   0
LINE
   8
LEVEL001
   6
CONTINUOUS
  62
7
  10
 123.341
  20
 146.674
  30
0.0
  11
 123.532
  21
 134.818
  31
0.0
   0
ARC
   8
LEVEL001
   6
CONTINUOUS
  62
7
  10
 123.250
  20
 139.818
  30
0.0
  40
 0.800002
  50
 289.386
  51
 358.002
   0
LINE
   8
LEVEL001
   6
CONTINUOUS
  62
7
  10
 125.064
  20
 119.818
  30
0.0
  11
 125.588
  21
 134.818
  31
0.0
   0
LINE
   8
LEVEL001
   6
CONTINUOUS
  62
7
  10
 124.219
  20
 144.632
  30
0.0
  11
 123.352
  21
 119.818
  31
0.0
   0
ARC
   8
LEVEL001
   6
CONTINUOUS
  62
7
  10
 23.4374
  20
 123.958
  30
0.0
  40
 100.000
  50
 341.252
  51
 357.627
   0
ARC
   8
LEVEL001
   6
CONTINUOUS
  62
7
  10
 5.07677
  20
 121.564
  30
0.0
  40
 120.000
  50
 345.648
  51
 359.167
   0
ARC
   8
LEVEL001
   6
CONTINUOUS
  62
7
  10
 124.846
  20
 144.618
  30
0.0
  40
 0.400001
  50
 1.99911
  51
 89.9989
   0
LINE
   8
LEVEL001
   6
CONTINUOUS
  62
7
  10
 124.846
  20
 145.018
  30
0.0
  11
 124.618
  21
 145.018
  31
0.0
   0
LINE
   8
LEVEL001
   6
CONTINUOUS
  62
7
  10
 125.245
  20
 144.632
  30
0.0
  11
 125.588
  21
 134.818
  31
0.0
   0
ARC
   8
LEVEL001
   6
CONTINUOUS
  62
7
  10
 73.2481
  20
 107.821
  30
0.0
  40
 60.0001
  50
 3.81992
  51
 29.1187
   0
LINE
   8
LEVEL001
   6
CONTINUOUS
  62
7
  10
 137.932
  20
 79.8182
  30
0.0
  11
 98.1319
  21
 79.8182
  31
0.0
   0
ARC
   8
LEVEL001
   6
CONTINUOUS
  62
7
  10
 107.332
  20
 128.618
  30
0.0
  40
 0.800002
  50
 270.001
  51
 359.999
   0
LINE
   8
LEVEL001
   6
CONTINUOUS
  62
7
  10
 107.332
  20
 127.818
  30
0.0
  11
 98.1319
  21
 127.818
  31
0.0
   0
LINE
   8
LEVEL001
   6
CONTINUOUS
  62
7
  10
 108.132
  20
 134.698
  30
0.0
  11
 108.132
  21
 128.618
  31
0.0
   0
LINE
   8
LEVEL001
   6
CONTINUOUS
  62
7
  10
 98.1319
  20
 131.818
  30
0.0
  11
 106.914
  21
 131.818
  31
0.0
   0
LINE
   8
LEVEL001
   6
CONTINUOUS
  62
7
  10
 107.922
  20
 134.533
  30
0.0
  11
 107.429
  21
 132.263
  31
0.0
   0
LINE
   8
LEVEL001
   6
CONTINUOUS
  62
7
  10
 107.437
  20
 131.294
  30
0.0
  11
 107.921
  21
 128.873
  31
0.0
   0
LINE
   8
LEVEL001
   6
CONTINUOUS
  62
7
  10
 137.228
  20
 83.9756
  30
0.0
  11
 136.843
  21
 84.0831
  31
0.0
   0
LINE
   8
LEVEL001
   6
CONTINUOUS
  62
7
  10
 98.1319
  20
 83.8182
  30
0.0
  11
 137.049
  21
 83.8182
  31
0.0
   0
LINE
   8
LEVEL001
   6
CONTINUOUS
  62
7
  10
 131.932
  20
 76.4030
  30
0.0
  11
 127.368
  21
 71.8182
  31
0.0
   0
CIRCLE
   8
LEVEL001
   6
CONTINUOUS
  62
7
  10
 114.132
  20
 75.0182
  30
0.0
  40
 2.40001
   0
CIRCLE
   8
LEVEL001
   6
CONTINUOUS
  62
7
  10
 114.132
  20
 75.0182
  30
0.0
  40
 3.80001
   0
ARC
   8
LEVEL001
   6
CONTINUOUS
  62
7
  10
 114.132
  20
 75.0182
  30
0.0
  40
 4.80002
  50
 180.000
  51
0.0
   0
LINE
   8
LEVEL001
   6
CONTINUOUS
  62
7
  10
 118.932
  20
 79.8182
  30
0.0
  11
 118.932
  21
 75.0182
  31
0.0
   0
LINE
   8
LEVEL001
   6
CONTINUOUS
  62
7
  10
 109.332
  20
 79.8182
  30
0.0
  11
 109.332
  21
 75.0182
  31
0.0
   0
ARC
   8
LEVEL001
   6
CONTINUOUS
  62
7
  10
 117.778
  20
 68.6181
  30
0.0
  40
 0.400001
  50
 1.99911
  51
 90.0033
   0
ARC
   8
LEVEL001
   6
CONTINUOUS
  62
7
  10
 126.542
  20
 70.2332
  30
0.0
  40
 0.400001
  50
 131.618
  51
 178.002
   0
LINE
   8
LEVEL001
   6
CONTINUOUS
  62
7
  10
 131.052
  20
 87.4182
  30
0.0
  11
 131.452
  21
 87.8182
  31
0.0
   0
LINE
   8
LEVEL001
   6
CONTINUOUS
  62
7
  10
 131.052
  20
 85.8182
  30
0.0
  11
 131.052
  21
 87.4182
  31
0.0
   0
LINE
   8
LEVEL001
   6
CONTINUOUS
  62
7
  10
 134.412
  20
 87.8182
  30
0.0
  11
 134.812
  21
 87.4182
  31
0.0
   0
LINE
   8
LEVEL001
   6
CONTINUOUS
  62
7
  10
 131.452
  20
 87.8182
  30
0.0
  11
 134.412
  21
 87.8182
  31
0.0
   0
LINE
   8
LEVEL001
   6
CONTINUOUS
  62
7
  10
 131.812
  20
 87.4116
  30
0.0
  11
 131.812
  21
 85.8182
  31
0.0
   0
LINE
   8
LEVEL001
   6
CONTINUOUS
  62
7
  10
 134.052
  20
 87.3938
  30
0.0
  11
 134.052
  21
 85.8182
  31
0.0
   0
ARC
   8
LEVEL001
   6
CONTINUOUS
  62
7
  10
 132.922
  20
 86.1011
  30
0.0
  40
 1.71720
  50
 48.8342
  51
 130.256
   0
LINE
   8
LEVEL001
   6
CONTINUOUS
  62
7
  10
 131.812
  20
 87.4116
  30
0.0
  11
 131.452
  21
 87.8182
  31
0.0
   0
LINE
   8
LEVEL001
   6
CONTINUOUS
  62
7
  10
 134.052
  20
 87.3938
  30
0.0
  11
 134.412
  21
 87.8182
  31
0.0
   0
POLYLINE
   8
LEVEL001
   6
CONTINUOUS
  62
7
  66
1
  10
0.0
  20
0.0
  30
0.0
  70
0
   0
VERTEX
   8
LEVEL001
   6
CONTINUOUS
  62
7
  10
 131.052
  20
 85.4182
  30
0.0
   0
VERTEX
   8
LEVEL001
   6
CONTINUOUS
  62
7
  10
 131.052
  20
 85.8182
  30
0.0
   0
VERTEX
   8
LEVEL001
   6
CONTINUOUS
  62
7
  10
 134.812
  20
 85.8182
  30
0.0
   0
VERTEX
   8
LEVEL001
   6
CONTINUOUS
  62
7
  10
 134.812
  20
 85.4182
  30
0.0
   0
SEQEND
   0
POLYLINE
   8
LEVEL001
   6
CONTINUOUS
  62
7
  66
1
  10
0.0
  20
0.0
  30
0.0
  70
0
   0
VERTEX
   8
LEVEL001
   6
CONTINUOUS
  62
7
  10
 130.732
  20
 85.0182
  30
0.0
   0
VERTEX
   8
LEVEL001
   6
CONTINUOUS
  62
7
  10
 130.732
  20
 85.4182
  30
0.0
   0
VERTEX
   8
LEVEL001
   6
CONTINUOUS
  62
7
  10
 135.132
  20
 85.4182
  30
0.0
   0
VERTEX
   8
LEVEL001
   6
CONTINUOUS
  62
7
  10
 135.132
  20
 85.0182
  30
0.0
   0
SEQEND
   0
LINE
   8
LEVEL001
   6
CONTINUOUS
  62
7
  10
 132.932
  20
 85.8182
  30
0.0
  11
 132.570
  21
 85.5539
  31
0.0
   0
LINE
   8
LEVEL001
   6
CONTINUOUS
  62
7
  10
 132.932
  20
 85.4182
  30
0.0
  11
 133.317
  21
 85.7494
  31
0.0
   0
POLYLINE
   8
LEVEL001
   6
CONTINUOUS
  62
7
  66
1
  10
0.0
  20
0.0
  30
0.0
  70
0
   0
VERTEX
   8
LEVEL001
   6
CONTINUOUS
  62
7
  10
 130.532
  20
 84.3274
  30
0.0
   0
VERTEX
   8
LEVEL001
   6
CONTINUOUS
  62
7
  10
 130.532
  20
 85.0182
  30
0.0
   0
VERTEX
   8
LEVEL001
   6
CONTINUOUS
  62
7
  10
 135.332
  20
 85.0182
  30
0.0
   0
VERTEX
   8
LEVEL001
   6
CONTINUOUS
  62
7
  10
 135.332
  20
 84.4518
  30
0.0
   0
SEQEND
   0
ARC
   8
LEVEL001
   6
CONTINUOUS
  62
7
  10
 131.586
  20
 86.0273
  30
0.0
  40
 2.00000
  50
 185.000
  51
 254.407
   0
POLYLINE
   8
LEVEL001
   6
CONTINUOUS
  62
7
  66
1
  10
0.0
  20
0.0
  30
0.0
  70
0
   0
VERTEX
   8
LEVEL001
   6
CONTINUOUS
  62
7
  10
 135.732
  20
 79.8182
  30
0.0
   0
VERTEX
   8
LEVEL001
   6
CONTINUOUS
  62
7
  10
 135.732
  20
 77.0182
  30
0.0
   0
VERTEX
   8
LEVEL001
   6
CONTINUOUS
  62
7
  10
 130.132
  20
 77.0182
  30
0.0
   0
VERTEX
   8
LEVEL001
   6
CONTINUOUS
  62
7
  10
 130.132
  20
 79.8182
  30
0.0
   0
SEQEND
   0
LINE
   8
LEVEL001
   6
CONTINUOUS
  62
7
  10
 132.132
  20
 77.0182
  30
0.0
  11
 132.132
  21
 75.8182
  31
0.0
   0
POLYLINE
   8
LEVEL001
   6
CONTINUOUS
  62
7
  66
1
  10
0.0
  20
0.0
  30
0.0
  70
0
   0
VERTEX
   8
LEVEL001
   6
CONTINUOUS
  62
7
  10
 131.932
  20
 77.0182
  30
0.0
   0
VERTEX
   8
LEVEL001
   6
CONTINUOUS
  62
7
  10
 131.932
  20
 75.8182
  30
0.0
   0
VERTEX
   8
LEVEL001
   6
CONTINUOUS
  62
7
  10
 133.932
  20
 75.8182
  30
0.0
   0
VERTEX
   8
LEVEL001
   6
CONTINUOUS
  62
7
  10
 133.932
  20
 77.0182
  30
0.0
   0
SEQEND
   0
LINE
   8
LEVEL001
   6
CONTINUOUS
  62
7
  10
 133.732
  20
 77.0182
  30
0.0
  11
 133.732
  21
 75.8182
  31
0.0
   0
LINE
   8
LEVEL001
   6
CONTINUOUS
  62
7
  10
 134.812
  20
 87.4182
  30
0.0
  11
 134.812
  21
 85.8182
  31
0.0
   0
LINE
   8
LEVEL001
   6
CONTINUOUS
  62
7
  10
 130.132
  20
 77.0182
  30
0.0
  11
 125.530
  21
 72.1329
  31
0.0
   0
LINE
   8
LEVEL001
   6
CONTINUOUS
  62
7
  10
 131.432
  20
 76.9502
  30
0.0
  11
 127.326
  21
 71.7774
  31
0.0
   0
LINE
   8
LEVEL001
   6
CONTINUOUS
  62
7
  10
 98.1319
  20
 135.818
  30
0.0
  11
 123.532
  21
 135.818
  31
0.0
   0
ARC
   8
LEVEL001
   6
CONTINUOUS
  62
7
  10
 98.2177
  20
-251.983
  30
0.0
  40
 400.001
  50
 86.4798
  51
 90.0123
   0
ARC
   8
LEVEL001
   6
CONTINUOUS
  62
7
  10
 162.972
  20
 105.698
  30
0.0
  40
 100.000
  50
 157.074
  51
 174.670
   0
ARC
   8
LEVEL001
   6
CONTINUOUS
  62
7
  10
 71.4233
  20
 144.418
  30
0.0
  40
 0.600001
  50
 90.0005
  51
 157.077
   0
ARC
   8
LEVEL001
   6
CONTINUOUS
  62
7
  10
 71.6455
  20
 144.618
  30
0.0
  40
 0.400001
  50
 1.99911
  51
 89.9989
   0
LINE
   8
LEVEL001
   6
CONTINUOUS
  62
7
  10
 60.8755
  20
 85.8352
  30
0.0
  11
 63.4564
  21
 115.334
  31
0.0
   0
ARC
   8
LEVEL001
   6
CONTINUOUS
  62
7
  10
 58.8831
  20
 86.0095
  30
0.0
  40
 2.00000
  50
 285.593
  51
 355.000
   0
ARC
   8
LEVEL001
   6
CONTINUOUS
  62
7
  10
 59.2505
  20
 83.2050
  30
0.0
  40
 0.800002
  50
 105.593
  51
 178.003
   0
LINE
   8
LEVEL001
   6
CONTINUOUS
  62
7
  10
 58.4510
  20
 83.2329
  30
0.0
  11
 58.3318
  21
 79.8182
  31
0.0
   0
ARC
   8
LEVEL001
   6
CONTINUOUS
  62
7
  10
 73.9717
  20
 75.0181
  30
0.0
  40
 6.00001
  50
 212.231
  51
 270.000
   0
LINE
   8
LEVEL001
   6
CONTINUOUS
  62
7
  10
 70.3183
  20
 64.6042
  30
0.0
  11
 70.1212
  21
 70.2471
  31
0.0
   0
ARC
   8
LEVEL001
   6
CONTINUOUS
  62
7
  10
 70.7181
  20
 64.6181
  30
0.0
  40
 0.400001
  50
 181.999
  51
 270.003
   0
LINE
   8
LEVEL001
   6
CONTINUOUS
  62
7
  10
 70.7181
  20
 64.2181
  30
0.0
  11
 77.5455
  21
 64.2181
  31
0.0
   0
POLYLINE
   8
LEVEL001
   6
CONTINUOUS
  62
7
  66
1
  10
0.0
  20
0.0
  30
0.0
  70
0
   0
VERTEX
   8
LEVEL001
   6
CONTINUOUS
  62
7
  10
 71.6118
  20
 64.2181
  30
0.0
   0
VERTEX
   8
LEVEL001
   6
CONTINUOUS
  62
7
  10
 71.6118
  20
 63.8181
  30
0.0
   0
VERTEX
   8
LEVEL001
   6
CONTINUOUS
  62
7
  10
 76.6518
  20
 63.8181
  30
0.0
   0
VERTEX
   8
LEVEL001
   6
CONTINUOUS
  62
7
  10
 76.6518
  20
 64.2181
  30
0.0
   0
SEQEND
   0
ARC
   8
LEVEL001
   6
CONTINUOUS
  62
7
  10
 74.1318
  20
 63.8181
  30
0.0
  40
 2.20003
  50
 180.000
  51
0.0
   0
LINE
   8
LEVEL001
   6
CONTINUOUS
  62
7
  10
 73.9717
  20
 69.0181
  30
0.0
  11
 98.1318
  21
 69.0181
  31
0.0
   0
ARC
   8
LEVEL001
   6
CONTINUOUS
  62
7
  10
 77.5455
  20
 64.6181
  30
0.0
  40
 0.400001
  50
 270.005
  51
 357.997
   0
LINE
   8
LEVEL001
   6
CONTINUOUS
  62
7
  10
 77.9453
  20
 64.6041
  30
0.0
  11
 78.0859
  21
 68.6321
  31
0.0
   0
ARC
   8
LEVEL001
   6
CONTINUOUS
  62
7
  10
 73.5229
  20
 146.665
  30
0.0
  40
 0.600001
  50
 93.5206
  51
 179.080
   0
LINE
   8
LEVEL001
   6
CONTINUOUS
  62
7
  10
 98.1318
  20
 134.818
  30
0.0
  11
 72.7318
  21
 134.818
  31
0.0
   0
LINE
   8
LEVEL001
   6
CONTINUOUS
  62
7
  10
 72.9230
  20
 146.674
  30
0.0
  11
 72.7318
  21
 134.818
  31
0.0
   0
ARC
   8
LEVEL001
   6
CONTINUOUS
  62
7
  10
 73.0138
  20
 139.818
  30
0.0
  40
 0.800002
  50
 181.998
  51
 250.614
   0
LINE
   8
LEVEL001
   6
CONTINUOUS
  62
7
  10
 71.1994
  20
 119.818
  30
0.0
  11
 70.6755
  21
 134.818
  31
0.0
   0
LINE
   8
LEVEL001
   6
CONTINUOUS
  62
7
  10
 72.0452
  20
 144.632
  30
0.0
  11
 72.9118
  21
 119.818
  31
0.0
   0
ARC
   8
LEVEL001
   6
CONTINUOUS
  62
7
  10
 172.826
  20
 123.958
  30
0.0
  40
 100.000
  50
 182.373
  51
 198.748
   0
ARC
   8
LEVEL001
   6
CONTINUOUS
  62
7
  10
 191.187
  20
 121.564
  30
0.0
  40
 120.000
  50
 180.833
  51
 194.352
   0
ARC
   8
LEVEL001
   6
CONTINUOUS
  62
7
  10
 71.4180
  20
 144.618
  30
0.0
  40
 0.400001
  50
 90.0011
  51
 178.001
   0
LINE
   8
LEVEL001
   6
CONTINUOUS
  62
7
  10
 71.4180
  20
 145.018
  30
0.0
  11
 71.6455
  21
 145.018
  31
0.0
   0
LINE
   8
LEVEL001
   6
CONTINUOUS
  62
7
  10
 71.0183
  20
 144.632
  30
0.0
  11
 70.6755
  21
 134.818
  31
0.0
   0
ARC
   8
LEVEL001
   6
CONTINUOUS
  62
7
  10
 123.016
  20
 107.821
  30
0.0
  40
 60.0001
  50
 150.881
  51
 176.180
   0
LINE
   8
LEVEL001
   6
CONTINUOUS
  62
7
  10
 58.3318
  20
 79.8182
  30
0.0
  11
 98.1318
  21
 79.8182
  31
0.0
   0
ARC
   8
LEVEL001
   6
CONTINUOUS
  62
7
  10
 88.9318
  20
 128.618
  30
0.0
  40
 0.800002
  50
 180.001
  51
 269.999
   0
LINE
   8
LEVEL001
   6
CONTINUOUS
  62
7
  10
 88.9318
  20
 127.818
  30
0.0
  11
 98.1318
  21
 127.818
  31
0.0
   0
LINE
   8
LEVEL001
   6
CONTINUOUS
  62
7
  10
 88.1318
  20
 134.698
  30
0.0
  11
 88.1318
  21
 128.618
  31
0.0
   0
LINE
   8
LEVEL001
   6
CONTINUOUS
  62
7
  10
 98.1318
  20
 131.818
  30
0.0
  11
 89.3494
  21
 131.818
  31
0.0
   0
LINE
   8
LEVEL001
   6
CONTINUOUS
  62
7
  10
 88.3416
  20
 134.533
  30
0.0
  11
 88.8351
  21
 132.263
  31
0.0
   0
LINE
   8
LEVEL001
   6
CONTINUOUS
  62
7
  10
 88.8269
  20
 131.294
  30
0.0
  11
 88.3428
  21
 128.873
  31
0.0
   0
LINE
   8
LEVEL001
   6
CONTINUOUS
  62
7
  10
 59.0354
  20
 83.9756
  30
0.0
  11
 59.4208
  21
 84.0831
  31
0.0
   0
LINE
   8
LEVEL001
   6
CONTINUOUS
  62
7
  10
 98.1318
  20
 83.8182
  30
0.0
  11
 59.2145
  21
 83.8182
  31
0.0
   0
LINE
   8
LEVEL001
   6
CONTINUOUS
  62
7
  10
 64.3317
  20
 76.4030
  30
0.0
  11
 68.8962
  21
 71.8182
  31
0.0
   0
ARC
   8
LEVEL001
   6
CONTINUOUS
  62
7
  10
 78.4856
  20
 68.6181
  30
0.0
  40
 0.400001
  50
 89.9967
  51
 178.001
   0
ARC
   8
LEVEL001
   6
CONTINUOUS
  62
7
  10
 69.7215
  20
 70.2332
  30
0.0
  40
 0.400001
  50
 1.99752
  51
 48.3823
   0
LINE
   8
LEVEL001
   6
CONTINUOUS
  62
7
  10
 65.2117
  20
 87.4182
  30
0.0
  11
 64.8117
  21
 87.8182
  31
0.0
   0
LINE
   8
LEVEL001
   6
CONTINUOUS
  62
7
  10
 65.2117
  20
 85.8182
  30
0.0
  11
 65.2117
  21
 87.4182
  31
0.0
   0
LINE
   8
LEVEL001
   6
CONTINUOUS
  62
7
  10
 61.8517
  20
 87.8182
  30
0.0
  11
 61.4517
  21
 87.4182
  31
0.0
   0
LINE
   8
LEVEL001
   6
CONTINUOUS
  62
7
  10
 64.8117
  20
 87.8182
  30
0.0
  11
 61.8517
  21
 87.8182
  31
0.0
   0
LINE
   8
LEVEL001
   6
CONTINUOUS
  62
7
  10
 64.4517
  20
 87.4116
  30
0.0
  11
 64.4517
  21
 85.8182
  31
0.0
   0
LINE
   8
LEVEL001
   6
CONTINUOUS
  62
7
  10
 62.2117
  20
 87.3938
  30
0.0
  11
 62.2117
  21
 85.8182
  31
0.0
   0
ARC
   8
LEVEL001
   6
CONTINUOUS
  62
7
  10
 63.3421
  20
 86.1011
  30
0.0
  40
 1.71720
  50
 49.7443
  51
 131.166
   0
LINE
   8
LEVEL001
   6
CONTINUOUS
  62
7
  10
 64.4517
  20
 87.4116
  30
0.0
  11
 64.8117
  21
 87.8182
  31
0.0
   0
LINE
   8
LEVEL001
   6
CONTINUOUS
  62
7
  10
 62.2117
  20
 87.3938
  30
0.0
  11
 61.8517
  21
 87.8182
  31
0.0
   0
POLYLINE
   8
LEVEL001
   6
CONTINUOUS
  62
7
  66
1
  10
0.0
  20
0.0
  30
0.0
  70
0
   0
VERTEX
   8
LEVEL001
   6
CONTINUOUS
  62
7
  10
 65.2117
  20
 85.4182
  30
0.0
   0
VERTEX
   8
LEVEL001
   6
CONTINUOUS
  62
7
  10
 65.2117
  20
 85.8182
  30
0.0
   0
VERTEX
   8
LEVEL001
   6
CONTINUOUS
  62
7
  10
 61.4517
  20
 85.8182
  30
0.0
   0
VERTEX
   8
LEVEL001
   6
CONTINUOUS
  62
7
  10
 61.4517
  20
 85.4182
  30
0.0
   0
SEQEND
   0
POLYLINE
   8
LEVEL001
   6
CONTINUOUS
  62
7
  66
1
  10
0.0
  20
0.0
  30
0.0
  70
0
   0
VERTEX
   8
LEVEL001
   6
CONTINUOUS
  62
7
  10
 65.5317
  20
 85.0182
  30
0.0
   0
VERTEX
   8
LEVEL001
   6
CONTINUOUS
  62
7
  10
 65.5317
  20
 85.4182
  30
0.0
   0
VERTEX
   8
LEVEL001
   6
CONTINUOUS
  62
7
  10
 61.1318
  20
 85.4182
  30
0.0
   0
VERTEX
   8
LEVEL001
   6
CONTINUOUS
  62
7
  10
 61.1318
  20
 85.0182
  30
0.0
   0
SEQEND
   0
LINE
   8
LEVEL001
   6
CONTINUOUS
  62
7
  10
 63.3317
  20
 85.8182
  30
0.0
  11
 63.6938
  21
 85.5539
  31
0.0
   0
LINE
   8
LEVEL001
   6
CONTINUOUS
  62
7
  10
 63.3317
  20
 85.4182
  30
0.0
  11
 62.9472
  21
 85.7494
  31
0.0
   0
POLYLINE
   8
LEVEL001
   6
CONTINUOUS
  62
7
  66
1
  10
0.0
  20
0.0
  30
0.0
  70
0
   0
VERTEX
   8
LEVEL001
   6
CONTINUOUS
  62
7
  10
 65.7318
  20
 84.3274
  30
0.0
   0
VERTEX
   8
LEVEL001
   6
CONTINUOUS
  62
7
  10
 65.7318
  20
 85.0182
  30
0.0
   0
VERTEX
   8
LEVEL001
   6
CONTINUOUS
  62
7
  10
 60.9317
  20
 85.0182
  30
0.0
   0
VERTEX
   8
LEVEL001
   6
CONTINUOUS
  62
7
  10
 60.9317
  20
 84.4518
  30
0.0
   0
SEQEND
   0
ARC
   8
LEVEL001
   6
CONTINUOUS
  62
7
  10
 64.6782
  20
 86.0273
  30
0.0
  40
 2.00000
  50
 285.593
  51
 355.000
   0
POLYLINE
   8
LEVEL001
   6
CONTINUOUS
  62
7
  66
1
  10
0.0
  20
0.0
  30
0.0
  70
0
   0
VERTEX
   8
LEVEL001
   6
CONTINUOUS
  62
7
  10
 60.5317
  20
 79.8182
  30
0.0
   0
VERTEX
   8
LEVEL001
   6
CONTINUOUS
  62
7
  10
 60.5317
  20
 77.0182
  30
0.0
   0
VERTEX
   8
LEVEL001
   6
CONTINUOUS
  62
7
  10
 66.1318
  20
 77.0182
  30
0.0
   0
VERTEX
   8
LEVEL001
   6
CONTINUOUS
  62
7
  10
 66.1318
  20
 79.8182
  30
0.0
   0
SEQEND
   0
LINE
   8
LEVEL001
   6
CONTINUOUS
  62
7
  10
 64.1318
  20
 77.0182
  30
0.0
  11
 64.1318
  21
 75.8182
  31
0.0
   0
POLYLINE
   8
LEVEL001
   6
CONTINUOUS
  62
7
  66
1
  10
0.0
  20
0.0
  30
0.0
  70
0
   0
VERTEX
   8
LEVEL001
   6
CONTINUOUS
  62
7
  10
 64.3317
  20
 77.0182
  30
0.0
   0
VERTEX
   8
LEVEL001
   6
CONTINUOUS
  62
7
  10
 64.3317
  20
 75.8182
  30
0.0
   0
VERTEX
   8
LEVEL001
   6
CONTINUOUS
  62
7
  10
 62.3317
  20
 75.8182
  30
0.0
   0
VERTEX
   8
LEVEL001
   6
CONTINUOUS
  62
7
  10
 62.3317
  20
 77.0182
  30
0.0
   0
SEQEND
   0
LINE
   8
LEVEL001
   6
CONTINUOUS
  62
7
  10
 62.5317
  20
 77.0182
  30
0.0
  11
 62.5317
  21
 75.8182
  31
0.0
   0
LINE
   8
LEVEL001
   6
CONTINUOUS
  62
7
  10
 61.4517
  20
 87.4182
  30
0.0
  11
 61.4517
  21
 85.8182
  31
0.0
   0
LINE
   8
LEVEL001
   6
CONTINUOUS
  62
7
  10
 66.1318
  20
 77.0182
  30
0.0
  11
 70.7335
  21
 72.1329
  31
0.0
   0
LINE
   8
LEVEL001
   6
CONTINUOUS
  62
7
  10
 64.8318
  20
 76.9502
  30
0.0
  11
 68.9381
  21
 71.7774
  31
0.0
   0
LINE
   8
LEVEL001
   6
CONTINUOUS
  62
7
  10
 98.1318
  20
 135.818
  30
0.0
  11
 72.7318
  21
 135.818
  31
0.0
   0
ARC
   8
LEVEL001
   6
CONTINUOUS
  62
7
  10
 98.0460
  20
-251.983
  30
0.0
  40
 400.001
  50
 89.9877
  51
 93.5202
   0
LINE
   8
LEVEL001
   6
DASHDOT
  62
1
  10
 74.1318
  20
 70.3949
  30
0.0
  11
 74.1318
  21
 59.7084
  31
0.0
   0
LINE
   8
LEVEL001
   6
DASHDOT
  62
1
  10
 122.132
  20
 70.3949
  30
0.0
  11
 122.132
  21
 59.7084
  31
0.0
   0
LINE
   8
LEVEL001
   6
CONTINUOUS
  62
1
  10
 67.7316
  20
 188.142
  30
0.0
  11
 67.7316
  21
 178.020
  31
0.0
   0
LINE
   8
LEVEL001
   6
CONTINUOUS
  62
1
  10
 127.731
  20
 188.204
  30
0.0
  11
 127.731
  21
 178.020
  31
0.0
   0
LINE
   8
LEVEL001
   6
CONTINUOUS
  62
1
  10
 67.7316
  20
 179.020
  30
0.0
  11
 127.731
  21
 179.020
  31
0.0
   0
LINE
   8
LEVEL001
   6
CONTINUOUS
  62
1
  10
 67.7316
  20
 179.020
  30
0.0
  11
 71.7316
  21
 178.493
  31
0.0
   0
LINE
   8
LEVEL001
   6
CONTINUOUS
  62
1
  10
 67.7316
  20
 179.020
  30
0.0
  11
 71.7316
  21
 179.547
  31
0.0
   0
LINE
   8
LEVEL001
   6
CONTINUOUS
  62
1
  10
 127.731
  20
 179.020
  30
0.0
  11
 123.731
  21
 179.547
  31
0.0
   0
LINE
   8
LEVEL001
   6
CONTINUOUS
  62
1
  10
 127.731
  20
 179.020
  30
0.0
  11
 123.731
  21
 178.493
  31
0.0
   0
TEXT
   8
LEVEL001
  62
1
  10
 88.7311
  20
 181.591
  30
0.0
  40
 6.00000
   1
150
   7
STANDARD
  72
1
  11
 97.7311
  21
 181.591
  31
0.0
   0
LINE
   8
LEVEL001
   6
CONTINUOUS
  62
1
  10
 58.3318
  20
 77.8182
  30
0.0
  11
 58.3318
  21
 32.0199
  31
0.0
   0
LINE
   8
LEVEL001
   6
CONTINUOUS
  62
1
  10
 137.932
  20
 77.8182
  30
0.0
  11
 137.932
  21
 32.0199
  31
0.0
   0
LINE
   8
LEVEL001
   6
CONTINUOUS
  62
1
  10
 58.3318
  20
 34.0199
  30
0.0
  11
 137.932
  21
 34.0199
  31
0.0
   0
LINE
   8
LEVEL001
   6
CONTINUOUS
  62
1
  10
 58.3318
  20
 34.0199
  30
0.0
  11
 62.3318
  21
 33.4933
  31
0.0
   0
LINE
   8
LEVEL001
   6
CONTINUOUS
  62
1
  10
 58.3318
  20
 34.0199
  30
0.0
  11
 62.3318
  21
 34.5465
  31
0.0
   0
LINE
   8
LEVEL001
   6
CONTINUOUS
  62
1
  10
 137.932
  20
 34.0199
  30
0.0
  11
 133.932
  21
 34.5465
  31
0.0
   0
LINE
   8
LEVEL001
   6
CONTINUOUS
  62
1
  10
 137.932
  20
 34.0199
  30
0.0
  11
 133.932
  21
 33.4933
  31
0.0
   0
TEXT
   8
LEVEL001
  62
1
  10
 89.1319
  20
 36.5913
  30
0.0
  40
 6.00000
   1
201
   7
STANDARD
  72
1
  11
 98.1319
  21
 36.5913
  31
0.0
   0
LINE
   8
LEVEL001
   6
CONTINUOUS
  62
1
  10
 74.1318
  20
 57.7084
  30
0.0
  11
 74.1318
  21
 48.0199
  31
0.0
   0
LINE
   8
LEVEL001
   6
CONTINUOUS
  62
1
  10
 122.132
  20
 57.7084
  30
0.0
  11
 122.132
  21
 48.0199
  31
0.0
   0
LINE
   8
LEVEL001
   6
CONTINUOUS
  62
1
  10
 74.1318
  20
 49.0199
  30
0.0
  11
 122.132
  21
 49.0199
  31
0.0
   0
LINE
   8
LEVEL001
   6
CONTINUOUS
  62
1
  10
 74.1318
  20
 49.0199
  30
0.0
  11
 78.1318
  21
 48.4933
  31
0.0
   0
LINE
   8
LEVEL001
   6
CONTINUOUS
  62
1
  10
 74.1318
  20
 49.0199
  30
0.0
  11
 78.1318
  21
 49.5465
  31
0.0
   0
LINE
   8
LEVEL001
   6
CONTINUOUS
  62
1
  10
 122.132
  20
 49.0199
  30
0.0
  11
 118.132
  21
 49.5465
  31
0.0
   0
LINE
   8
LEVEL001
   6
CONTINUOUS
  62
1
  10
 122.132
  20
 49.0199
  30
0.0
  11
 118.132
  21
 48.4933
  31
0.0
   0
TEXT
   8
LEVEL001
  62
1
  10
 89.1319
  20
 51.5913
  30
0.0
  40
 6.00000
   1
120
   7
STANDARD
  72
1
  11
 98.1319
  21
 51.5913
  31
0.0
   0
LINE
   8
LEVEL001
   6
CONTINUOUS
  62
1
  10
 100.132
  20
 148.018
  30
0.0
  11
 165.132
  21
 148.018
  31
0.0
   0
LINE
   8
LEVEL001
   6
CONTINUOUS
  62
1
  10
 124.132
  20
 61.6180
  30
0.0
  11
 165.132
  21
 61.6180
  31
0.0
   0
LINE
   8
LEVEL001
   6
CONTINUOUS
  62
1
  10
 163.132
  20
 148.018
  30
0.0
  11
 163.132
  21
 61.6180
  31
0.0
   0
LINE
   8
LEVEL001
   6
CONTINUOUS
  62
1
  10
 163.132
  20
 148.018
  30
0.0
  11
 162.605
  21
 144.018
  31
0.0
   0
LINE
   8
LEVEL001
   6
CONTINUOUS
  62
1
  10
 163.132
  20
 148.018
  30
0.0
  11
 163.658
  21
 144.018
  31
0.0
   0
LINE
   8
LEVEL001
   6
CONTINUOUS
  62
1
  10
 163.132
  20
 61.6180
  30
0.0
  11
 163.658
  21
 65.6180
  31
0.0
   0
LINE
   8
LEVEL001
   6
CONTINUOUS
  62
1
  10
 163.132
  20
 61.6180
  30
0.0
  11
 162.605
  21
 65.6180
  31
0.0
   0
TEXT
   8
LEVEL001
  62
1
  10
 160.560
  20
 95.8182
  30
0.0
  40
 6.00000
   1
216
  50
 90.0000
   7
STANDARD
  72
1
  11
 160.560
  21
 104.818
  31
0.0
   0
LINE
   8
LEVEL001
   6
CONTINUOUS
  62
1
  10
 156.930
  20
 201.219
  30
0.0
  11
 175.132
  21
 201.219
  31
0.0
   0
LINE
   8
LEVEL001
   6
CONTINUOUS
  62
1
  10
 156.930
  20
 208.819
  30
0.0
  11
 175.132
  21
 208.819
  31
0.0
   0
LINE
   8
LEVEL001
   6
CONTINUOUS
  62
1
  10
 173.132
  20
 201.219
  30
0.0
  11
 173.132
  21
 208.819
  31
0.0
   0
LINE
   8
LEVEL001
   6
CONTINUOUS
  62
1
  10
 173.132
  20
 208.819
  30
0.0
  11
 173.132
  21
 231.020
  31
0.0
   0
LINE
   8
LEVEL001
   6
CONTINUOUS
  62
1
  10
 173.132
  20
 201.219
  30
0.0
  11
 172.605
  21
 197.219
  31
0.0
   0
LINE
   8
LEVEL001
   6
CONTINUOUS
  62
1
  10
 173.132
  20
 201.219
  30
0.0
  11
 173.658
  21
 197.219
  31
0.0
   0
LINE
   8
LEVEL001
   6
CONTINUOUS
  62
1
  10
 173.132
  20
 208.819
  30
0.0
  11
 173.658
  21
 212.819
  31
0.0
   0
LINE
   8
LEVEL001
   6
CONTINUOUS
  62
1
  10
 173.132
  20
 208.819
  30
0.0
  11
 172.605
  21
 212.819
  31
0.0
   0
LINE
   8
LEVEL001
   6
CONTINUOUS
  62
1
  10
 173.132
  20
 201.219
  30
0.0
  11
 173.132
  21
 196.219
  31
0.0
   0
LINE
   8
LEVEL001
   6
CONTINUOUS
  62
1
  10
 173.132
  20
 208.819
  30
0.0
  11
 173.132
  21
 231.020
  31
0.0
   0
TEXT
   8
LEVEL001
  62
1
  10
 170.560
  20
 213.020
  30
0.0
  40
 6.00000
   1
%%c19
  50
 90.0000
   7
STANDARD
   0
LINE
   8
LEVEL001
   6
CONTINUOUS
  62
1
  10
 129.731
  20
 191.619
  30
0.0
  11
 190.132
  21
 191.619
  31
0.0
   0
LINE
   8
LEVEL001
   6
CONTINUOUS
  62
1
  10
 159.751
  20
 205.019
  30
0.0
  11
 190.132
  21
 205.019
  31
0.0
   0
LINE
   8
LEVEL001
   6
CONTINUOUS
  62
1
  10
 188.132
  20
 191.619
  30
0.0
  11
 188.132
  21
 205.019
  31
0.0
   0
LINE
   8
LEVEL001
   6
CONTINUOUS
  62
1
  10
 188.132
  20
 205.019
  30
0.0
  11
 188.132
  21
 228.520
  31
0.0
   0
LINE
   8
LEVEL001
   6
CONTINUOUS
  62
1
  10
 188.132
  20
 191.619
  30
0.0
  11
 187.605
  21
 187.619
  31
0.0
   0
LINE
   8
LEVEL001
   6
CONTINUOUS
  62
1
  10
 188.132
  20
 191.619
  30
0.0
  11
 188.658
  21
 187.619
  31
0.0
   0
LINE
   8
LEVEL001
   6
CONTINUOUS
  62
1
  10
 188.132
  20
 205.019
  30
0.0
  11
 188.658
  21
 209.019
  31
0.0
   0
LINE
   8
LEVEL001
   6
CONTINUOUS
  62
1
  10
 188.132
  20
 205.019
  30
0.0
  11
 187.605
  21
 209.019
  31
0.0
   0
LINE
   8
LEVEL001
   6
CONTINUOUS
  62
1
  10
 188.132
  20
 191.619
  30
0.0
  11
 188.132
  21
 186.619
  31
0.0
   0
LINE
   8
LEVEL001
   6
CONTINUOUS
  62
1
  10
 188.132
  20
 205.019
  30
0.0
  11
 188.132
  21
 228.520
  31
0.0
   0
TEXT
   8
LEVEL001
  62
1
  10
 185.560
  20
 207.520
  30
0.0
  40
 6.00000
   1
33.5
  50
 90.0000
   7
STANDARD
   0
LINE
   8
LEVEL001
   6
CONTINUOUS
  62
1
  10
 48.7319
  20
 207.819
  30
0.0
  11
 48.7319
  21
 162.020
  31
0.0
   0
LINE
   8
LEVEL001
   6
CONTINUOUS
  62
1
  10
 146.730
  20
 207.819
  30
0.0
  11
 146.730
  21
 162.020
  31
0.0
   0
LINE
   8
LEVEL001
   6
CONTINUOUS
  62
1
  10
 48.7319
  20
 164.020
  30
0.0
  11
 146.730
  21
 164.020
  31
0.0
   0
LINE
   8
LEVEL001
   6
CONTINUOUS
  62
1
  10
 48.7319
  20
 164.020
  30
0.0
  11
 52.7319
  21
 163.493
  31
0.0
   0
LINE
   8
LEVEL001
   6
CONTINUOUS
  62
1
  10
 48.7319
  20
 164.020
  30
0.0
  11
 52.7319
  21
 164.547
  31
0.0
   0
LINE
   8
LEVEL001
   6
CONTINUOUS
  62
1
  10
 146.730
  20
 164.020
  30
0.0
  11
 142.730
  21
 164.547
  31
0.0
   0
LINE
   8
LEVEL001
   6
CONTINUOUS
  62
1
  10
 146.730
  20
 164.020
  30
0.0
  11
 142.730
  21
 163.493
  31
0.0
   0
TEXT
   8
LEVEL001
  62
1
  10
 88.7311
  20
 166.591
  30
0.0
  40
 6.00000
   1
247
   7
STANDARD
  72
1
  11
 97.7311
  21
 166.591
  31
0.0
   0
LINE
   8
LEVEL001
   6
CONTINUOUS
  62
1
  10
 146.730
  20
 207.819
  30
0.0
  11
 146.730
  21
 162.020
  31
0.0
   0
LINE
   8
LEVEL001
   6
CONTINUOUS
  62
1
  10
 155.330
  20
 199.619
  30
0.0
  11
 155.330
  21
 162.020
  31
0.0
   0
LINE
   8
LEVEL001
   6
CONTINUOUS
  62
1
  10
 146.730
  20
 164.020
  30
0.0
  11
 155.330
  21
 164.020
  31
0.0
   0
LINE
   8
LEVEL001
   6
CONTINUOUS
  62
1
  10
 155.330
  20
 164.020
  30
0.0
  11
 180.132
  21
 164.020
  31
0.0
   0
LINE
   8
LEVEL001
   6
CONTINUOUS
  62
1
  10
 146.730
  20
 164.020
  30
0.0
  11
 142.730
  21
 164.547
  31
0.0
   0
LINE
   8
LEVEL001
   6
CONTINUOUS
  62
1
  10
 146.730
  20
 164.020
  30
0.0
  11
 142.730
  21
 163.493
  31
0.0
   0
LINE
   8
LEVEL001
   6
CONTINUOUS
  62
1
  10
 155.330
  20
 164.020
  30
0.0
  11
 159.330
  21
 163.493
  31
0.0
   0
LINE
   8
LEVEL001
   6
CONTINUOUS
  62
1
  10
 155.330
  20
 164.020
  30
0.0
  11
 159.330
  21
 164.547
  31
0.0
   0
LINE
   8
LEVEL001
   6
CONTINUOUS
  62
1
  10
 146.730
  20
 164.020
  30
0.0
  11
 141.730
  21
 164.020
  31
0.0
   0
LINE
   8
LEVEL001
   6
CONTINUOUS
  62
1
  10
 155.330
  20
 164.020
  30
0.0
  11
 180.132
  21
 164.020
  31
0.0
   0
TEXT
   8
LEVEL001
  62
1
  10
 159.132
  20
 166.591
  30
0.0
  40
 6.00000
   1
21.5
   7
STANDARD
   0
ENDSEC
   0
EOF
